ISO-10303-21;
HEADER;
/* Generated by software containing ST-Developer
 * from STEP Tools, Inc. (www.steptools.com) 
 */

FILE_DESCRIPTION(
/* description */ (''),
/* implementation_level */ '2;1');

FILE_NAME(
/* name */ 'QMC-CRYOPLATEBF-04 v1.step',
/* time_stamp */ '2023-07-19T15:01:33-04:00',
/* author */ (''),
/* organization */ (''),
/* preprocessor_version */ 'ST-DEVELOPER v19.2',
/* originating_system */ 'Autodesk Translation Framework v12.6.0.85',
/* authorisation */ '');

FILE_SCHEMA (('AUTOMOTIVE_DESIGN { 1 0 10303 214 3 1 1 }'));
ENDSEC;

DATA;
#10=MECHANICAL_DESIGN_GEOMETRIC_PRESENTATION_REPRESENTATION('',(#21),#468);
#11=ITEM_DEFINED_TRANSFORMATION($,$,#274,#308);
#12=ITEM_DEFINED_TRANSFORMATION($,$,#275,#309);
#13=(
REPRESENTATION_RELATIONSHIP($,$,#485,#484)
REPRESENTATION_RELATIONSHIP_WITH_TRANSFORMATION(#11)
SHAPE_REPRESENTATION_RELATIONSHIP()
);
#14=(
REPRESENTATION_RELATIONSHIP($,$,#486,#484)
REPRESENTATION_RELATIONSHIP_WITH_TRANSFORMATION(#12)
SHAPE_REPRESENTATION_RELATIONSHIP()
);
#15=CONTEXT_DEPENDENT_SHAPE_REPRESENTATION(#13,#482);
#16=CONTEXT_DEPENDENT_SHAPE_REPRESENTATION(#14,#483);
#17=NEXT_ASSEMBLY_USAGE_OCCURRENCE('Component2:1','Component2:1',
'Component2:1',#488,#489,'Component2:1');
#18=NEXT_ASSEMBLY_USAGE_OCCURRENCE('Component4:1','Component4:1',
'Component4:1',#488,#490,'Component4:1');
#19=SHAPE_REPRESENTATION_RELATIONSHIP('SRR','None',#486,#20);
#20=ADVANCED_BREP_SHAPE_REPRESENTATION('',(#22),#467);
#21=STYLED_ITEM('',(#504),#22);
#22=MANIFOLD_SOLID_BREP('Body1',#249);
#23=FACE_BOUND('',#62,.T.);
#24=FACE_BOUND('',#63,.T.);
#25=FACE_BOUND('',#64,.T.);
#26=FACE_BOUND('',#65,.T.);
#27=FACE_BOUND('',#66,.T.);
#28=FACE_BOUND('',#67,.T.);
#29=FACE_BOUND('',#68,.T.);
#30=FACE_BOUND('',#71,.T.);
#31=FACE_BOUND('',#72,.T.);
#32=FACE_BOUND('',#73,.T.);
#33=FACE_BOUND('',#74,.T.);
#34=FACE_BOUND('',#75,.T.);
#35=FACE_BOUND('',#76,.T.);
#36=FACE_BOUND('',#77,.T.);
#37=PLANE('',#283);
#38=PLANE('',#293);
#39=CYLINDRICAL_SURFACE('',#280,1.04330708661417);
#40=CYLINDRICAL_SURFACE('',#301,0.1115);
#41=CYLINDRICAL_SURFACE('',#302,0.0826771653543307);
#42=CYLINDRICAL_SURFACE('',#303,0.0826771653543307);
#43=CYLINDRICAL_SURFACE('',#304,0.0826771653543307);
#44=CYLINDRICAL_SURFACE('',#305,0.1115);
#45=CYLINDRICAL_SURFACE('',#306,0.1115);
#46=CYLINDRICAL_SURFACE('',#307,0.1115);
#47=FACE_OUTER_BOUND('',#59,.T.);
#48=FACE_OUTER_BOUND('',#60,.T.);
#49=FACE_OUTER_BOUND('',#61,.T.);
#50=FACE_OUTER_BOUND('',#69,.T.);
#51=FACE_OUTER_BOUND('',#70,.T.);
#52=FACE_OUTER_BOUND('',#78,.T.);
#53=FACE_OUTER_BOUND('',#79,.T.);
#54=FACE_OUTER_BOUND('',#80,.T.);
#55=FACE_OUTER_BOUND('',#81,.T.);
#56=FACE_OUTER_BOUND('',#82,.T.);
#57=FACE_OUTER_BOUND('',#83,.T.);
#58=FACE_OUTER_BOUND('',#84,.T.);
#59=EDGE_LOOP('',(#175,#176,#177,#178,#179));
#60=EDGE_LOOP('',(#180,#181,#182,#183,#184,#185));
#61=EDGE_LOOP('',(#186));
#62=EDGE_LOOP('',(#187));
#63=EDGE_LOOP('',(#188));
#64=EDGE_LOOP('',(#189));
#65=EDGE_LOOP('',(#190));
#66=EDGE_LOOP('',(#191));
#67=EDGE_LOOP('',(#192));
#68=EDGE_LOOP('',(#193));
#69=EDGE_LOOP('',(#194,#195,#196,#197,#198));
#70=EDGE_LOOP('',(#199));
#71=EDGE_LOOP('',(#200));
#72=EDGE_LOOP('',(#201));
#73=EDGE_LOOP('',(#202));
#74=EDGE_LOOP('',(#203));
#75=EDGE_LOOP('',(#204));
#76=EDGE_LOOP('',(#205));
#77=EDGE_LOOP('',(#206));
#78=EDGE_LOOP('',(#207,#208,#209,#210));
#79=EDGE_LOOP('',(#211,#212,#213,#214));
#80=EDGE_LOOP('',(#215,#216,#217,#218));
#81=EDGE_LOOP('',(#219,#220,#221,#222));
#82=EDGE_LOOP('',(#223,#224,#225,#226));
#83=EDGE_LOOP('',(#227,#228,#229,#230));
#84=EDGE_LOOP('',(#231,#232,#233,#234));
#85=LINE('',#403,#95);
#86=LINE('',#410,#96);
#87=LINE('',#429,#97);
#88=LINE('',#446,#98);
#89=LINE('',#448,#99);
#90=LINE('',#450,#100);
#91=LINE('',#452,#101);
#92=LINE('',#454,#102);
#93=LINE('',#456,#103);
#94=LINE('',#458,#104);
#95=VECTOR('',#322,1.03580708661417);
#96=VECTOR('',#331,1.04330708661417);
#97=VECTOR('',#352,1.03580708661417);
#98=VECTOR('',#371,0.111496062992126);
#99=VECTOR('',#374,0.0826771653543307);
#100=VECTOR('',#377,0.0826771653543307);
#101=VECTOR('',#380,0.0826771653543307);
#102=VECTOR('',#383,0.111496062992126);
#103=VECTOR('',#386,0.111496062992126);
#104=VECTOR('',#389,0.111496062992126);
#105=CIRCLE('',#277,1.04330708661417);
#106=CIRCLE('',#278,1.04330708661417);
#107=CIRCLE('',#279,1.02830708661418);
#108=CIRCLE('',#281,1.04330708661417);
#109=CIRCLE('',#282,1.04330708661417);
#110=CIRCLE('',#284,0.0826771653543307);
#111=CIRCLE('',#285,0.0826771653543307);
#112=CIRCLE('',#286,0.0826771653543307);
#113=CIRCLE('',#287,0.1115);
#114=CIRCLE('',#288,0.1115);
#115=CIRCLE('',#289,0.1115);
#116=CIRCLE('',#290,0.1115);
#117=CIRCLE('',#292,1.02830708661418);
#118=CIRCLE('',#294,0.0826771653543307);
#119=CIRCLE('',#295,0.0826771653543307);
#120=CIRCLE('',#296,0.0826771653543307);
#121=CIRCLE('',#297,0.1115);
#122=CIRCLE('',#298,0.1115);
#123=CIRCLE('',#299,0.1115);
#124=CIRCLE('',#300,0.1115);
#125=VERTEX_POINT('',#398);
#126=VERTEX_POINT('',#399);
#127=VERTEX_POINT('',#402);
#128=VERTEX_POINT('',#406);
#129=VERTEX_POINT('',#407);
#130=VERTEX_POINT('',#412);
#131=VERTEX_POINT('',#414);
#132=VERTEX_POINT('',#416);
#133=VERTEX_POINT('',#418);
#134=VERTEX_POINT('',#420);
#135=VERTEX_POINT('',#422);
#136=VERTEX_POINT('',#424);
#137=VERTEX_POINT('',#427);
#138=VERTEX_POINT('',#431);
#139=VERTEX_POINT('',#433);
#140=VERTEX_POINT('',#435);
#141=VERTEX_POINT('',#437);
#142=VERTEX_POINT('',#439);
#143=VERTEX_POINT('',#441);
#144=VERTEX_POINT('',#443);
#145=EDGE_CURVE('',#125,#126,#105,.T.);
#146=EDGE_CURVE('',#126,#125,#106,.T.);
#147=EDGE_CURVE('',#125,#127,#85,.T.);
#148=EDGE_CURVE('',#127,#127,#107,.T.);
#149=EDGE_CURVE('',#128,#129,#108,.T.);
#150=EDGE_CURVE('',#129,#128,#109,.T.);
#151=EDGE_CURVE('',#129,#126,#86,.T.);
#152=EDGE_CURVE('',#130,#130,#110,.T.);
#153=EDGE_CURVE('',#131,#131,#111,.T.);
#154=EDGE_CURVE('',#132,#132,#112,.T.);
#155=EDGE_CURVE('',#133,#133,#113,.F.);
#156=EDGE_CURVE('',#134,#134,#114,.F.);
#157=EDGE_CURVE('',#135,#135,#115,.F.);
#158=EDGE_CURVE('',#136,#136,#116,.F.);
#159=EDGE_CURVE('',#137,#137,#117,.T.);
#160=EDGE_CURVE('',#137,#128,#87,.T.);
#161=EDGE_CURVE('',#138,#138,#118,.T.);
#162=EDGE_CURVE('',#139,#139,#119,.T.);
#163=EDGE_CURVE('',#140,#140,#120,.T.);
#164=EDGE_CURVE('',#141,#141,#121,.T.);
#165=EDGE_CURVE('',#142,#142,#122,.T.);
#166=EDGE_CURVE('',#143,#143,#123,.T.);
#167=EDGE_CURVE('',#144,#144,#124,.T.);
#168=EDGE_CURVE('',#141,#133,#88,.T.);
#169=EDGE_CURVE('',#140,#132,#89,.T.);
#170=EDGE_CURVE('',#139,#131,#90,.T.);
#171=EDGE_CURVE('',#138,#130,#91,.T.);
#172=EDGE_CURVE('',#142,#134,#92,.T.);
#173=EDGE_CURVE('',#143,#135,#93,.T.);
#174=EDGE_CURVE('',#144,#136,#94,.T.);
#175=ORIENTED_EDGE('',*,*,#145,.T.);
#176=ORIENTED_EDGE('',*,*,#146,.T.);
#177=ORIENTED_EDGE('',*,*,#147,.T.);
#178=ORIENTED_EDGE('',*,*,#148,.T.);
#179=ORIENTED_EDGE('',*,*,#147,.F.);
#180=ORIENTED_EDGE('',*,*,#149,.F.);
#181=ORIENTED_EDGE('',*,*,#150,.F.);
#182=ORIENTED_EDGE('',*,*,#151,.T.);
#183=ORIENTED_EDGE('',*,*,#145,.F.);
#184=ORIENTED_EDGE('',*,*,#146,.F.);
#185=ORIENTED_EDGE('',*,*,#151,.F.);
#186=ORIENTED_EDGE('',*,*,#148,.F.);
#187=ORIENTED_EDGE('',*,*,#152,.F.);
#188=ORIENTED_EDGE('',*,*,#153,.F.);
#189=ORIENTED_EDGE('',*,*,#154,.F.);
#190=ORIENTED_EDGE('',*,*,#155,.T.);
#191=ORIENTED_EDGE('',*,*,#156,.T.);
#192=ORIENTED_EDGE('',*,*,#157,.T.);
#193=ORIENTED_EDGE('',*,*,#158,.T.);
#194=ORIENTED_EDGE('',*,*,#159,.T.);
#195=ORIENTED_EDGE('',*,*,#160,.T.);
#196=ORIENTED_EDGE('',*,*,#149,.T.);
#197=ORIENTED_EDGE('',*,*,#150,.T.);
#198=ORIENTED_EDGE('',*,*,#160,.F.);
#199=ORIENTED_EDGE('',*,*,#159,.F.);
#200=ORIENTED_EDGE('',*,*,#161,.T.);
#201=ORIENTED_EDGE('',*,*,#162,.T.);
#202=ORIENTED_EDGE('',*,*,#163,.T.);
#203=ORIENTED_EDGE('',*,*,#164,.T.);
#204=ORIENTED_EDGE('',*,*,#165,.T.);
#205=ORIENTED_EDGE('',*,*,#166,.T.);
#206=ORIENTED_EDGE('',*,*,#167,.T.);
#207=ORIENTED_EDGE('',*,*,#164,.F.);
#208=ORIENTED_EDGE('',*,*,#168,.T.);
#209=ORIENTED_EDGE('',*,*,#155,.F.);
#210=ORIENTED_EDGE('',*,*,#168,.F.);
#211=ORIENTED_EDGE('',*,*,#163,.F.);
#212=ORIENTED_EDGE('',*,*,#169,.T.);
#213=ORIENTED_EDGE('',*,*,#154,.T.);
#214=ORIENTED_EDGE('',*,*,#169,.F.);
#215=ORIENTED_EDGE('',*,*,#162,.F.);
#216=ORIENTED_EDGE('',*,*,#170,.T.);
#217=ORIENTED_EDGE('',*,*,#153,.T.);
#218=ORIENTED_EDGE('',*,*,#170,.F.);
#219=ORIENTED_EDGE('',*,*,#161,.F.);
#220=ORIENTED_EDGE('',*,*,#171,.T.);
#221=ORIENTED_EDGE('',*,*,#152,.T.);
#222=ORIENTED_EDGE('',*,*,#171,.F.);
#223=ORIENTED_EDGE('',*,*,#165,.F.);
#224=ORIENTED_EDGE('',*,*,#172,.T.);
#225=ORIENTED_EDGE('',*,*,#156,.F.);
#226=ORIENTED_EDGE('',*,*,#172,.F.);
#227=ORIENTED_EDGE('',*,*,#166,.F.);
#228=ORIENTED_EDGE('',*,*,#173,.T.);
#229=ORIENTED_EDGE('',*,*,#157,.F.);
#230=ORIENTED_EDGE('',*,*,#173,.F.);
#231=ORIENTED_EDGE('',*,*,#167,.F.);
#232=ORIENTED_EDGE('',*,*,#174,.T.);
#233=ORIENTED_EDGE('',*,*,#158,.F.);
#234=ORIENTED_EDGE('',*,*,#174,.F.);
#235=CONICAL_SURFACE('',#276,1.03580708661417,0.78539816339739);
#236=CONICAL_SURFACE('',#291,1.03580708661417,0.78539816339739);
#237=ADVANCED_FACE('',(#47),#235,.T.);
#238=ADVANCED_FACE('',(#48),#39,.T.);
#239=ADVANCED_FACE('',(#49,#23,#24,#25,#26,#27,#28,#29),#37,.F.);
#240=ADVANCED_FACE('',(#50),#236,.T.);
#241=ADVANCED_FACE('',(#51,#30,#31,#32,#33,#34,#35,#36),#38,.T.);
#242=ADVANCED_FACE('',(#52),#40,.F.);
#243=ADVANCED_FACE('',(#53),#41,.F.);
#244=ADVANCED_FACE('',(#54),#42,.F.);
#245=ADVANCED_FACE('',(#55),#43,.F.);
#246=ADVANCED_FACE('',(#56),#44,.F.);
#247=ADVANCED_FACE('',(#57),#45,.F.);
#248=ADVANCED_FACE('',(#58),#46,.F.);
#249=CLOSED_SHELL('',(#237,#238,#239,#240,#241,#242,#243,#244,#245,#246,
#247,#248));
#250=DERIVED_UNIT_ELEMENT(#254,1.);
#251=DERIVED_UNIT_ELEMENT(#472,-3.);
#252=DERIVED_UNIT_ELEMENT(#254,1.);
#253=DERIVED_UNIT_ELEMENT(#472,-3.);
#254=(
MASS_UNIT()
NAMED_UNIT(*)
SI_UNIT(.KILO.,.GRAM.)
);
#255=DERIVED_UNIT((#250,#251));
#256=DERIVED_UNIT((#252,#253));
#257=MEASURE_REPRESENTATION_ITEM('density measure',
POSITIVE_RATIO_MEASURE(7850.),#255);
#258=MEASURE_REPRESENTATION_ITEM('density measure',
POSITIVE_RATIO_MEASURE(7850.),#256);
#259=PROPERTY_DEFINITION_REPRESENTATION(#269,#263);
#260=PROPERTY_DEFINITION_REPRESENTATION(#270,#264);
#261=PROPERTY_DEFINITION_REPRESENTATION(#271,#265);
#262=PROPERTY_DEFINITION_REPRESENTATION(#272,#266);
#263=REPRESENTATION('material name',(#267),#466);
#264=REPRESENTATION('density',(#257),#466);
#265=REPRESENTATION('material name',(#268),#467);
#266=REPRESENTATION('density',(#258),#467);
#267=DESCRIPTIVE_REPRESENTATION_ITEM('Steel','Steel');
#268=DESCRIPTIVE_REPRESENTATION_ITEM('Steel','Steel');
#269=PROPERTY_DEFINITION('material property','material name',#489);
#270=PROPERTY_DEFINITION('material property','density of part',#489);
#271=PROPERTY_DEFINITION('material property','material name',#490);
#272=PROPERTY_DEFINITION('material property','density of part',#490);
#273=AXIS2_PLACEMENT_3D('',#394,#310,#311);
#274=AXIS2_PLACEMENT_3D('',#395,#312,#313);
#275=AXIS2_PLACEMENT_3D('',#396,#314,#315);
#276=AXIS2_PLACEMENT_3D('',#397,#316,#317);
#277=AXIS2_PLACEMENT_3D('',#400,#318,#319);
#278=AXIS2_PLACEMENT_3D('',#401,#320,#321);
#279=AXIS2_PLACEMENT_3D('',#404,#323,#324);
#280=AXIS2_PLACEMENT_3D('',#405,#325,#326);
#281=AXIS2_PLACEMENT_3D('',#408,#327,#328);
#282=AXIS2_PLACEMENT_3D('',#409,#329,#330);
#283=AXIS2_PLACEMENT_3D('',#411,#332,#333);
#284=AXIS2_PLACEMENT_3D('',#413,#334,#335);
#285=AXIS2_PLACEMENT_3D('',#415,#336,#337);
#286=AXIS2_PLACEMENT_3D('',#417,#338,#339);
#287=AXIS2_PLACEMENT_3D('',#419,#340,#341);
#288=AXIS2_PLACEMENT_3D('',#421,#342,#343);
#289=AXIS2_PLACEMENT_3D('',#423,#344,#345);
#290=AXIS2_PLACEMENT_3D('',#425,#346,#347);
#291=AXIS2_PLACEMENT_3D('',#426,#348,#349);
#292=AXIS2_PLACEMENT_3D('',#428,#350,#351);
#293=AXIS2_PLACEMENT_3D('',#430,#353,#354);
#294=AXIS2_PLACEMENT_3D('',#432,#355,#356);
#295=AXIS2_PLACEMENT_3D('',#434,#357,#358);
#296=AXIS2_PLACEMENT_3D('',#436,#359,#360);
#297=AXIS2_PLACEMENT_3D('',#438,#361,#362);
#298=AXIS2_PLACEMENT_3D('',#440,#363,#364);
#299=AXIS2_PLACEMENT_3D('',#442,#365,#366);
#300=AXIS2_PLACEMENT_3D('',#444,#367,#368);
#301=AXIS2_PLACEMENT_3D('',#445,#369,#370);
#302=AXIS2_PLACEMENT_3D('',#447,#372,#373);
#303=AXIS2_PLACEMENT_3D('',#449,#375,#376);
#304=AXIS2_PLACEMENT_3D('',#451,#378,#379);
#305=AXIS2_PLACEMENT_3D('',#453,#381,#382);
#306=AXIS2_PLACEMENT_3D('',#455,#384,#385);
#307=AXIS2_PLACEMENT_3D('',#457,#387,#388);
#308=AXIS2_PLACEMENT_3D('',#459,#390,#391);
#309=AXIS2_PLACEMENT_3D('',#460,#392,#393);
#310=DIRECTION('axis',(0.,0.,1.));
#311=DIRECTION('refdir',(1.,0.,0.));
#312=DIRECTION('axis',(0.,0.,1.));
#313=DIRECTION('refdir',(1.,0.,0.));
#314=DIRECTION('axis',(0.,0.,1.));
#315=DIRECTION('refdir',(1.,0.,0.));
#316=DIRECTION('center_axis',(0.,1.,0.));
#317=DIRECTION('ref_axis',(-0.500000000000017,0.,0.866025403784429));
#318=DIRECTION('center_axis',(0.,-1.,0.));
#319=DIRECTION('ref_axis',(-0.500000000000017,0.,0.866025403784429));
#320=DIRECTION('center_axis',(0.,-1.,0.));
#321=DIRECTION('ref_axis',(-0.500000000000017,0.,0.866025403784429));
#322=DIRECTION('',(-0.353553390593265,-0.707106781186589,0.612372435695752));
#323=DIRECTION('center_axis',(0.,1.,0.));
#324=DIRECTION('ref_axis',(-0.500000000000017,0.,0.866025403784429));
#325=DIRECTION('center_axis',(0.,1.,0.));
#326=DIRECTION('ref_axis',(0.500000000000017,0.,-0.866025403784429));
#327=DIRECTION('center_axis',(0.,1.,0.));
#328=DIRECTION('ref_axis',(-0.500000000000017,0.,0.866025403784429));
#329=DIRECTION('center_axis',(0.,1.,0.));
#330=DIRECTION('ref_axis',(-0.500000000000017,0.,0.866025403784429));
#331=DIRECTION('',(0.,-1.,0.));
#332=DIRECTION('center_axis',(0.,1.,0.));
#333=DIRECTION('ref_axis',(0.500000000000017,0.,-0.866025403784429));
#334=DIRECTION('center_axis',(0.,-1.,0.));
#335=DIRECTION('ref_axis',(0.499999999999966,0.,0.866025403784458));
#336=DIRECTION('center_axis',(0.,-1.,0.));
#337=DIRECTION('ref_axis',(-1.,0.,0.));
#338=DIRECTION('center_axis',(0.,-1.,0.));
#339=DIRECTION('ref_axis',(0.500000000000017,0.,-0.866025403784429));
#340=DIRECTION('center_axis',(0.,-1.,0.));
#341=DIRECTION('ref_axis',(0.,0.,1.));
#342=DIRECTION('center_axis',(0.,-1.,0.));
#343=DIRECTION('ref_axis',(0.,0.,1.));
#344=DIRECTION('center_axis',(0.,-1.,0.));
#345=DIRECTION('ref_axis',(0.,0.,1.));
#346=DIRECTION('center_axis',(0.,-1.,0.));
#347=DIRECTION('ref_axis',(0.,0.,1.));
#348=DIRECTION('center_axis',(0.,-1.,0.));
#349=DIRECTION('ref_axis',(-0.500000000000017,0.,0.866025403784429));
#350=DIRECTION('center_axis',(0.,-1.,0.));
#351=DIRECTION('ref_axis',(-0.500000000000017,0.,0.866025403784429));
#352=DIRECTION('',(0.353553390593265,-0.707106781186589,-0.612372435695752));
#353=DIRECTION('center_axis',(0.,1.,0.));
#354=DIRECTION('ref_axis',(0.500000000000017,0.,-0.866025403784429));
#355=DIRECTION('center_axis',(0.,-1.,0.));
#356=DIRECTION('ref_axis',(0.499999999999966,0.,0.866025403784458));
#357=DIRECTION('center_axis',(0.,-1.,0.));
#358=DIRECTION('ref_axis',(-1.,0.,0.));
#359=DIRECTION('center_axis',(0.,-1.,0.));
#360=DIRECTION('ref_axis',(0.500000000000017,0.,-0.866025403784429));
#361=DIRECTION('center_axis',(0.,-1.,0.));
#362=DIRECTION('ref_axis',(0.,0.,1.));
#363=DIRECTION('center_axis',(0.,-1.,0.));
#364=DIRECTION('ref_axis',(0.,0.,1.));
#365=DIRECTION('center_axis',(0.,-1.,0.));
#366=DIRECTION('ref_axis',(0.,0.,1.));
#367=DIRECTION('center_axis',(0.,-1.,0.));
#368=DIRECTION('ref_axis',(0.,0.,1.));
#369=DIRECTION('center_axis',(0.,-1.,0.));
#370=DIRECTION('ref_axis',(0.,0.,1.));
#371=DIRECTION('',(0.,-1.,0.));
#372=DIRECTION('center_axis',(0.,-1.,0.));
#373=DIRECTION('ref_axis',(0.500000000000017,0.,-0.866025403784429));
#374=DIRECTION('',(0.,-1.,0.));
#375=DIRECTION('center_axis',(0.,-1.,0.));
#376=DIRECTION('ref_axis',(-1.,0.,0.));
#377=DIRECTION('',(0.,-1.,0.));
#378=DIRECTION('center_axis',(0.,-1.,0.));
#379=DIRECTION('ref_axis',(0.499999999999966,0.,0.866025403784458));
#380=DIRECTION('',(0.,-1.,0.));
#381=DIRECTION('center_axis',(0.,-1.,0.));
#382=DIRECTION('ref_axis',(0.,0.,1.));
#383=DIRECTION('',(0.,-1.,0.));
#384=DIRECTION('center_axis',(0.,-1.,0.));
#385=DIRECTION('ref_axis',(0.,0.,1.));
#386=DIRECTION('',(0.,-1.,0.));
#387=DIRECTION('center_axis',(0.,-1.,0.));
#388=DIRECTION('ref_axis',(0.,0.,1.));
#389=DIRECTION('',(0.,-1.,0.));
#390=DIRECTION('',(0.,0.,1.));
#391=DIRECTION('',(1.,0.,0.));
#392=DIRECTION('',(0.,0.,1.));
#393=DIRECTION('',(1.,0.,0.));
#394=CARTESIAN_POINT('',(0.,0.,0.));
#395=CARTESIAN_POINT('',(0.,0.,0.));
#396=CARTESIAN_POINT('',(0.,0.,0.));
#397=CARTESIAN_POINT('Origin',(14.1732283464567,-38.6539173228346,8.81586804937402));
#398=CARTESIAN_POINT('',(14.6948818897638,-38.6464173228346,7.91233760841782));
#399=CARTESIAN_POINT('',(13.6515748031496,-38.6464173228346,9.71939849033021));
#400=CARTESIAN_POINT('Origin',(14.1732283464567,-38.6464173228346,8.81586804937402));
#401=CARTESIAN_POINT('Origin',(14.1732283464567,-38.6464173228346,8.81586804937402));
#402=CARTESIAN_POINT('',(14.6873818897638,-38.6614173228346,7.92532798947459));
#403=CARTESIAN_POINT('',(14.6911318897638,-38.6539173228346,7.9188327989462));
#404=CARTESIAN_POINT('Origin',(14.1732283464567,-38.6614173228346,8.81586804937402));
#405=CARTESIAN_POINT('Origin',(14.1732283464567,-38.6614173228346,8.81586804937402));
#406=CARTESIAN_POINT('',(14.6948818897638,-38.5510472440945,7.91233760841782));
#407=CARTESIAN_POINT('',(13.6515748031496,-38.5510472440945,9.71939849033021));
#408=CARTESIAN_POINT('Origin',(14.1732283464567,-38.5510472440945,8.81586804937402));
#409=CARTESIAN_POINT('Origin',(14.1732283464567,-38.5510472440945,8.81586804937402));
#410=CARTESIAN_POINT('',(13.6515748031496,-38.6614173228346,9.71939849033021));
#411=CARTESIAN_POINT('Origin',(14.1732283464567,-38.6614173228346,8.81586804937402));
#412=CARTESIAN_POINT('',(14.9501814838909,-38.6614173228346,8.27182657898229));
#413=CARTESIAN_POINT('Origin',(14.991520066568,-38.6614173228346,8.34342710449202));
#414=CARTESIAN_POINT('',(14.2559055118109,-38.6614173228346,9.76074993913791));
#415=CARTESIAN_POINT('Origin',(14.1732283464566,-38.6614173228346,9.76074993913791));
#416=CARTESIAN_POINT('',(13.3135980436683,-38.6614173228346,8.41502763000185));
#417=CARTESIAN_POINT('Origin',(13.3549366263454,-38.6614173228346,8.34342710449211));
#418=CARTESIAN_POINT('',(14.448878234956,-38.6614173228346,8.4287774998803));
#419=CARTESIAN_POINT('Origin',(14.448878234956,-38.6614173228346,8.5402774998803));
#420=CARTESIAN_POINT('',(13.8976971325938,-38.6614173228346,8.4287774998803));
#421=CARTESIAN_POINT('Origin',(13.8976971325938,-38.6614173228346,8.5402774998803));
#422=CARTESIAN_POINT('',(14.448878234956,-38.6614173228346,8.9799586022425));
#423=CARTESIAN_POINT('Origin',(14.448878234956,-38.6614173228346,9.0914586022425));
#424=CARTESIAN_POINT('',(13.8976971325938,-38.6614173228346,8.9799586022425));
#425=CARTESIAN_POINT('Origin',(13.8976971325938,-38.6614173228346,9.0914586022425));
#426=CARTESIAN_POINT('Origin',(14.1732283464567,-38.5435472440945,8.81586804937402));
#427=CARTESIAN_POINT('',(14.6873818897638,-38.5360472440945,7.92532798947459));
#428=CARTESIAN_POINT('Origin',(14.1732283464567,-38.5360472440945,8.81586804937402));
#429=CARTESIAN_POINT('',(14.6911318897638,-38.5435472440945,7.9188327989462));
#430=CARTESIAN_POINT('Origin',(14.1732283464567,-38.5360472440945,8.81586804937402));
#431=CARTESIAN_POINT('',(14.9501814838909,-38.5360472440945,8.27182657898229));
#432=CARTESIAN_POINT('Origin',(14.991520066568,-38.5360472440945,8.34342710449202));
#433=CARTESIAN_POINT('',(14.2559055118109,-38.5360472440945,9.76074993913791));
#434=CARTESIAN_POINT('Origin',(14.1732283464566,-38.5360472440945,9.76074993913791));
#435=CARTESIAN_POINT('',(13.3135980436683,-38.5360472440945,8.41502763000185));
#436=CARTESIAN_POINT('Origin',(13.3549366263454,-38.5360472440945,8.34342710449211));
#437=CARTESIAN_POINT('',(14.448878234956,-38.5360472440945,8.4287774998803));
#438=CARTESIAN_POINT('Origin',(14.448878234956,-38.5360472440945,8.5402774998803));
#439=CARTESIAN_POINT('',(13.8976971325938,-38.5360472440945,8.4287774998803));
#440=CARTESIAN_POINT('Origin',(13.8976971325938,-38.5360472440945,8.5402774998803));
#441=CARTESIAN_POINT('',(14.448878234956,-38.5360472440945,8.9799586022425));
#442=CARTESIAN_POINT('Origin',(14.448878234956,-38.5360472440945,9.0914586022425));
#443=CARTESIAN_POINT('',(13.8976971325938,-38.5360472440945,8.9799586022425));
#444=CARTESIAN_POINT('Origin',(13.8976971325938,-38.5360472440945,9.0914586022425));
#445=CARTESIAN_POINT('Origin',(14.448878234956,-38.6050007874016,8.5402774998803));
#446=CARTESIAN_POINT('',(14.448878234956,-38.6050007874016,8.4287774998803));
#447=CARTESIAN_POINT('Origin',(13.3549366263454,-38.6220472440945,8.34342710449211));
#448=CARTESIAN_POINT('',(13.3135980436683,-38.6220472440945,8.41502763000185));
#449=CARTESIAN_POINT('Origin',(14.1732283464566,-38.6220472440945,9.76074993913791));
#450=CARTESIAN_POINT('',(14.2559055118109,-38.6220472440945,9.76074993913791));
#451=CARTESIAN_POINT('Origin',(14.991520066568,-38.6220472440945,8.34342710449202));
#452=CARTESIAN_POINT('',(14.9501814838909,-38.6220472440945,8.27182657898229));
#453=CARTESIAN_POINT('Origin',(13.8976971325938,-38.6050007874016,8.5402774998803));
#454=CARTESIAN_POINT('',(13.8976971325938,-38.6050007874016,8.4287774998803));
#455=CARTESIAN_POINT('Origin',(14.448878234956,-38.6050007874016,9.0914586022425));
#456=CARTESIAN_POINT('',(14.448878234956,-38.6050007874016,8.9799586022425));
#457=CARTESIAN_POINT('Origin',(13.8976971325938,-38.6050007874016,9.0914586022425));
#458=CARTESIAN_POINT('',(13.8976971325938,-38.6050007874016,8.9799586022425));
#459=CARTESIAN_POINT('',(0.,0.,0.));
#460=CARTESIAN_POINT('',(0.,0.,0.));
#461=UNCERTAINTY_MEASURE_WITH_UNIT(LENGTH_MEASURE(0.000393700787401575),
#470,'DISTANCE_ACCURACY_VALUE',
'Maximum model space distance between geometric entities at asserted c
onnectivities');
#462=UNCERTAINTY_MEASURE_WITH_UNIT(LENGTH_MEASURE(0.000393700787401575),
#470,'DISTANCE_ACCURACY_VALUE',
'Maximum model space distance between geometric entities at asserted c
onnectivities');
#463=UNCERTAINTY_MEASURE_WITH_UNIT(LENGTH_MEASURE(0.000393700787401575),
#470,'DISTANCE_ACCURACY_VALUE',
'Maximum model space distance between geometric entities at asserted c
onnectivities');
#464=UNCERTAINTY_MEASURE_WITH_UNIT(LENGTH_MEASURE(0.000393700787401575),
#470,'DISTANCE_ACCURACY_VALUE',
'Maximum model space distance between geometric entities at asserted c
onnectivities');
#465=(
GEOMETRIC_REPRESENTATION_CONTEXT(3)
GLOBAL_UNCERTAINTY_ASSIGNED_CONTEXT((#461))
GLOBAL_UNIT_ASSIGNED_CONTEXT((#470,#474,#475))
REPRESENTATION_CONTEXT('','3D')
);
#466=(
GEOMETRIC_REPRESENTATION_CONTEXT(3)
GLOBAL_UNCERTAINTY_ASSIGNED_CONTEXT((#462))
GLOBAL_UNIT_ASSIGNED_CONTEXT((#470,#474,#475))
REPRESENTATION_CONTEXT('','3D')
);
#467=(
GEOMETRIC_REPRESENTATION_CONTEXT(3)
GLOBAL_UNCERTAINTY_ASSIGNED_CONTEXT((#463))
GLOBAL_UNIT_ASSIGNED_CONTEXT((#470,#474,#475))
REPRESENTATION_CONTEXT('','3D')
);
#468=(
GEOMETRIC_REPRESENTATION_CONTEXT(3)
GLOBAL_UNCERTAINTY_ASSIGNED_CONTEXT((#464))
GLOBAL_UNIT_ASSIGNED_CONTEXT((#470,#474,#475))
REPRESENTATION_CONTEXT('','3D')
);
#469=DIMENSIONAL_EXPONENTS(1.,0.,0.,0.,0.,0.,0.);
#470=(
CONVERSION_BASED_UNIT('inch',#473)
LENGTH_UNIT()
NAMED_UNIT(#469)
);
#471=(
LENGTH_UNIT()
NAMED_UNIT(*)
SI_UNIT(.MILLI.,.METRE.)
);
#472=(
LENGTH_UNIT()
NAMED_UNIT(*)
SI_UNIT($,.METRE.)
);
#473=LENGTH_MEASURE_WITH_UNIT(LENGTH_MEASURE(25.4),#471);
#474=(
NAMED_UNIT(*)
PLANE_ANGLE_UNIT()
SI_UNIT($,.RADIAN.)
);
#475=(
NAMED_UNIT(*)
SI_UNIT($,.STERADIAN.)
SOLID_ANGLE_UNIT()
);
#476=SHAPE_DEFINITION_REPRESENTATION(#479,#484);
#477=SHAPE_DEFINITION_REPRESENTATION(#480,#485);
#478=SHAPE_DEFINITION_REPRESENTATION(#481,#486);
#479=PRODUCT_DEFINITION_SHAPE('',$,#488);
#480=PRODUCT_DEFINITION_SHAPE('',$,#489);
#481=PRODUCT_DEFINITION_SHAPE('',$,#490);
#482=PRODUCT_DEFINITION_SHAPE($,$,#17);
#483=PRODUCT_DEFINITION_SHAPE($,$,#18);
#484=SHAPE_REPRESENTATION('',(#273,#308,#309),#465);
#485=SHAPE_REPRESENTATION('',(#274),#466);
#486=SHAPE_REPRESENTATION('',(#275),#467);
#487=PRODUCT_DEFINITION_CONTEXT('part definition',#498,'design');
#488=PRODUCT_DEFINITION('QMC-CRYOPLATEBF-04','QMC-CRYOPLATEBF-04 v1',#491,
#487);
#489=PRODUCT_DEFINITION('Component2','Component2',#492,#487);
#490=PRODUCT_DEFINITION('Component4','Component4',#493,#487);
#491=PRODUCT_DEFINITION_FORMATION('',$,#500);
#492=PRODUCT_DEFINITION_FORMATION('',$,#501);
#493=PRODUCT_DEFINITION_FORMATION('',$,#502);
#494=PRODUCT_RELATED_PRODUCT_CATEGORY('QMC-CRYOPLATEBF-04 v1',
'QMC-CRYOPLATEBF-04 v1',(#500));
#495=PRODUCT_RELATED_PRODUCT_CATEGORY('Component2','Component2',(#501));
#496=PRODUCT_RELATED_PRODUCT_CATEGORY('Component4','Component4',(#502));
#497=APPLICATION_PROTOCOL_DEFINITION('international standard',
'automotive_design',2009,#498);
#498=APPLICATION_CONTEXT(
'Core Data for Automotive Mechanical Design Process');
#499=PRODUCT_CONTEXT('part definition',#498,'mechanical');
#500=PRODUCT('QMC-CRYOPLATEBF-04','QMC-CRYOPLATEBF-04 v1',$,(#499));
#501=PRODUCT('Component2','Component2',$,(#499));
#502=PRODUCT('Component4','Component4',$,(#499));
#503=PRESENTATION_STYLE_ASSIGNMENT((#505));
#504=PRESENTATION_STYLE_ASSIGNMENT((#506));
#505=SURFACE_STYLE_USAGE(.BOTH.,#507);
#506=SURFACE_STYLE_USAGE(.BOTH.,#508);
#507=SURFACE_SIDE_STYLE('',(#509));
#508=SURFACE_SIDE_STYLE('',(#510));
#509=SURFACE_STYLE_FILL_AREA(#511);
#510=SURFACE_STYLE_FILL_AREA(#512);
#511=FILL_AREA_STYLE('Steel - Satin',(#513));
#512=FILL_AREA_STYLE('Opaque(242,193,45)',(#514));
#513=FILL_AREA_STYLE_COLOUR('Steel - Satin',#515);
#514=FILL_AREA_STYLE_COLOUR('Opaque(242,193,45)',#516);
#515=COLOUR_RGB('Steel - Satin',0.627450980392157,0.627450980392157,0.627450980392157);
#516=COLOUR_RGB('Opaque(242,193,45)',0.949019607843137,0.756862745098039,
0.176470588235294);
ENDSEC;
END-ISO-10303-21;
