ISO-10303-21;
HEADER;
/* Generated by software containing ST-Developer
 * from STEP Tools, Inc. (www.steptools.com) 
 */

FILE_DESCRIPTION(
/* description */ (''),
/* implementation_level */ '2;1');

FILE_NAME(
/* name */ '.0615 DIA PIN v4.step',
/* time_stamp */ '2023-04-11T12:09:02-04:00',
/* author */ (''),
/* organization */ (''),
/* preprocessor_version */ 'ST-DEVELOPER v19.2',
/* originating_system */ 'Autodesk Translation Framework v12.4.0.73',
/* authorisation */ '');

FILE_SCHEMA (('AUTOMOTIVE_DESIGN { 1 0 10303 214 3 1 1 }'));
ENDSEC;

DATA;
#10=MECHANICAL_DESIGN_GEOMETRIC_PRESENTATION_REPRESENTATION('',(#13),#216);
#11=SHAPE_REPRESENTATION_RELATIONSHIP('SRR','None',#226,#12);
#12=ADVANCED_BREP_SHAPE_REPRESENTATION('',(#14),#215);
#13=STYLED_ITEM('',(#235),#14);
#14=MANIFOLD_SOLID_BREP('Body1',#113);
#15=SPHERICAL_SURFACE('',#138,0.03075);
#16=PLANE('',#133);
#17=CYLINDRICAL_SURFACE('',#131,0.03075);
#18=CYLINDRICAL_SURFACE('',#142,0.03075);
#19=FACE_OUTER_BOUND('',#26,.T.);
#20=FACE_OUTER_BOUND('',#27,.T.);
#21=FACE_OUTER_BOUND('',#28,.T.);
#22=FACE_OUTER_BOUND('',#29,.T.);
#23=FACE_OUTER_BOUND('',#30,.T.);
#24=FACE_OUTER_BOUND('',#31,.T.);
#25=FACE_OUTER_BOUND('',#32,.T.);
#26=EDGE_LOOP('',(#75,#76,#77,#78,#79));
#27=EDGE_LOOP('',(#80,#81,#82,#83,#84));
#28=EDGE_LOOP('',(#85));
#29=EDGE_LOOP('',(#86,#87,#88,#89));
#30=EDGE_LOOP('',(#90,#91,#92,#93));
#31=EDGE_LOOP('',(#94,#95,#96,#97));
#32=EDGE_LOOP('',(#98,#99,#100,#101,#102));
#33=LINE('',#187,#38);
#34=LINE('',#193,#39);
#35=LINE('',#200,#40);
#36=LINE('',#203,#41);
#37=LINE('',#212,#42);
#38=VECTOR('',#149,0.02875);
#39=VECTOR('',#156,0.03075);
#40=VECTOR('',#165,0.02825);
#41=VECTOR('',#170,0.02825);
#42=VECTOR('',#181,0.03075);
#43=CIRCLE('',#128,0.02675);
#44=CIRCLE('',#129,0.03075);
#45=CIRCLE('',#130,0.03075);
#46=CIRCLE('',#132,0.03075);
#47=CIRCLE('',#135,0.02575);
#48=CIRCLE('',#136,0.03075);
#49=CIRCLE('',#139,0.03075);
#50=CIRCLE('',#140,0.03075);
#51=CIRCLE('',#141,0.03075);
#52=VERTEX_POINT('',#184);
#53=VERTEX_POINT('',#186);
#54=VERTEX_POINT('',#188);
#55=VERTEX_POINT('',#192);
#56=VERTEX_POINT('',#197);
#57=VERTEX_POINT('',#199);
#58=VERTEX_POINT('',#205);
#59=VERTEX_POINT('',#206);
#60=VERTEX_POINT('',#208);
#61=EDGE_CURVE('',#52,#52,#43,.T.);
#62=EDGE_CURVE('',#52,#53,#33,.T.);
#63=EDGE_CURVE('',#53,#54,#44,.T.);
#64=EDGE_CURVE('',#54,#53,#45,.T.);
#65=EDGE_CURVE('',#54,#55,#34,.T.);
#66=EDGE_CURVE('',#55,#55,#46,.T.);
#67=EDGE_CURVE('',#56,#56,#47,.T.);
#68=EDGE_CURVE('',#56,#57,#35,.T.);
#69=EDGE_CURVE('',#57,#57,#48,.T.);
#70=EDGE_CURVE('',#55,#56,#36,.T.);
#71=EDGE_CURVE('',#58,#59,#49,.T.);
#72=EDGE_CURVE('',#59,#60,#50,.T.);
#73=EDGE_CURVE('',#59,#58,#51,.T.);
#74=EDGE_CURVE('',#57,#58,#37,.T.);
#75=ORIENTED_EDGE('',*,*,#61,.T.);
#76=ORIENTED_EDGE('',*,*,#62,.T.);
#77=ORIENTED_EDGE('',*,*,#63,.T.);
#78=ORIENTED_EDGE('',*,*,#64,.T.);
#79=ORIENTED_EDGE('',*,*,#62,.F.);
#80=ORIENTED_EDGE('',*,*,#63,.F.);
#81=ORIENTED_EDGE('',*,*,#64,.F.);
#82=ORIENTED_EDGE('',*,*,#65,.T.);
#83=ORIENTED_EDGE('',*,*,#66,.T.);
#84=ORIENTED_EDGE('',*,*,#65,.F.);
#85=ORIENTED_EDGE('',*,*,#61,.F.);
#86=ORIENTED_EDGE('',*,*,#67,.T.);
#87=ORIENTED_EDGE('',*,*,#68,.T.);
#88=ORIENTED_EDGE('',*,*,#69,.F.);
#89=ORIENTED_EDGE('',*,*,#68,.F.);
#90=ORIENTED_EDGE('',*,*,#66,.F.);
#91=ORIENTED_EDGE('',*,*,#70,.T.);
#92=ORIENTED_EDGE('',*,*,#67,.F.);
#93=ORIENTED_EDGE('',*,*,#70,.F.);
#94=ORIENTED_EDGE('',*,*,#71,.T.);
#95=ORIENTED_EDGE('',*,*,#72,.T.);
#96=ORIENTED_EDGE('',*,*,#72,.F.);
#97=ORIENTED_EDGE('',*,*,#73,.T.);
#98=ORIENTED_EDGE('',*,*,#69,.T.);
#99=ORIENTED_EDGE('',*,*,#74,.T.);
#100=ORIENTED_EDGE('',*,*,#73,.F.);
#101=ORIENTED_EDGE('',*,*,#71,.F.);
#102=ORIENTED_EDGE('',*,*,#74,.F.);
#103=CONICAL_SURFACE('',#127,0.02875,0.785398163397451);
#104=CONICAL_SURFACE('',#134,0.02825,0.785398163397446);
#105=CONICAL_SURFACE('',#137,0.02825,0.78539816339745);
#106=ADVANCED_FACE('',(#19),#103,.T.);
#107=ADVANCED_FACE('',(#20),#17,.T.);
#108=ADVANCED_FACE('',(#21),#16,.T.);
#109=ADVANCED_FACE('',(#22),#104,.T.);
#110=ADVANCED_FACE('',(#23),#105,.T.);
#111=ADVANCED_FACE('',(#24),#15,.T.);
#112=ADVANCED_FACE('',(#25),#18,.T.);
#113=CLOSED_SHELL('',(#106,#107,#108,#109,#110,#111,#112));
#114=DERIVED_UNIT_ELEMENT(#116,1.);
#115=DERIVED_UNIT_ELEMENT(#220,-3.);
#116=(
MASS_UNIT()
NAMED_UNIT(*)
SI_UNIT(.KILO.,.GRAM.)
);
#117=DERIVED_UNIT((#114,#115));
#118=MEASURE_REPRESENTATION_ITEM('density measure',
POSITIVE_RATIO_MEASURE(7850.),#117);
#119=PROPERTY_DEFINITION_REPRESENTATION(#124,#121);
#120=PROPERTY_DEFINITION_REPRESENTATION(#125,#122);
#121=REPRESENTATION('material name',(#123),#215);
#122=REPRESENTATION('density',(#118),#215);
#123=DESCRIPTIVE_REPRESENTATION_ITEM('Steel','Steel');
#124=PROPERTY_DEFINITION('material property','material name',#228);
#125=PROPERTY_DEFINITION('material property','density of part',#228);
#126=AXIS2_PLACEMENT_3D('',#182,#143,#144);
#127=AXIS2_PLACEMENT_3D('',#183,#145,#146);
#128=AXIS2_PLACEMENT_3D('',#185,#147,#148);
#129=AXIS2_PLACEMENT_3D('',#189,#150,#151);
#130=AXIS2_PLACEMENT_3D('',#190,#152,#153);
#131=AXIS2_PLACEMENT_3D('',#191,#154,#155);
#132=AXIS2_PLACEMENT_3D('',#194,#157,#158);
#133=AXIS2_PLACEMENT_3D('',#195,#159,#160);
#134=AXIS2_PLACEMENT_3D('',#196,#161,#162);
#135=AXIS2_PLACEMENT_3D('',#198,#163,#164);
#136=AXIS2_PLACEMENT_3D('',#201,#166,#167);
#137=AXIS2_PLACEMENT_3D('',#202,#168,#169);
#138=AXIS2_PLACEMENT_3D('',#204,#171,#172);
#139=AXIS2_PLACEMENT_3D('',#207,#173,#174);
#140=AXIS2_PLACEMENT_3D('',#209,#175,#176);
#141=AXIS2_PLACEMENT_3D('',#210,#177,#178);
#142=AXIS2_PLACEMENT_3D('',#211,#179,#180);
#143=DIRECTION('axis',(0.,0.,1.));
#144=DIRECTION('refdir',(1.,0.,0.));
#145=DIRECTION('center_axis',(0.,-1.,2.22044604925031E-16));
#146=DIRECTION('ref_axis',(-1.,0.,0.));
#147=DIRECTION('center_axis',(0.,-1.,2.22044604925031E-16));
#148=DIRECTION('ref_axis',(-1.,0.,0.));
#149=DIRECTION('',(0.707106781186549,-0.707106781186546,7.04136402448275E-17));
#150=DIRECTION('center_axis',(0.,1.,-2.22044604925031E-16));
#151=DIRECTION('ref_axis',(-1.,0.,0.));
#152=DIRECTION('center_axis',(0.,1.,-2.22044604925031E-16));
#153=DIRECTION('ref_axis',(-1.,0.,0.));
#154=DIRECTION('center_axis',(0.,1.,-2.22044604925031E-16));
#155=DIRECTION('ref_axis',(1.,0.,0.));
#156=DIRECTION('',(0.,-1.,2.22044604925031E-16));
#157=DIRECTION('center_axis',(0.,1.,-2.22044604925031E-16));
#158=DIRECTION('ref_axis',(1.,0.,0.));
#159=DIRECTION('center_axis',(0.,1.,-2.22044604925031E-16));
#160=DIRECTION('ref_axis',(1.,0.,0.));
#161=DIRECTION('center_axis',(0.,-1.,0.));
#162=DIRECTION('ref_axis',(1.,0.,0.));
#163=DIRECTION('center_axis',(0.,-1.,0.));
#164=DIRECTION('ref_axis',(1.,0.,0.));
#165=DIRECTION('',(-0.707106781186546,-0.707106781186549,-8.65956056235491E-17));
#166=DIRECTION('center_axis',(0.,-1.,2.22044604925031E-16));
#167=DIRECTION('ref_axis',(1.,0.,0.));
#168=DIRECTION('center_axis',(0.,1.,0.));
#169=DIRECTION('ref_axis',(1.,0.,0.));
#170=DIRECTION('',(0.707106781186548,-0.707106781186547,8.65956056235494E-17));
#171=DIRECTION('center_axis',(0.,1.,-6.12323399573677E-17));
#172=DIRECTION('ref_axis',(0.,0.,-1.));
#173=DIRECTION('center_axis',(0.,-1.,2.22044604925031E-16));
#174=DIRECTION('ref_axis',(1.,0.,0.));
#175=DIRECTION('center_axis',(1.,0.,-1.22464679914735E-16));
#176=DIRECTION('ref_axis',(1.22464679914735E-16,0.,1.));
#177=DIRECTION('center_axis',(0.,-1.,2.22044604925031E-16));
#178=DIRECTION('ref_axis',(1.,0.,0.));
#179=DIRECTION('center_axis',(0.,1.,-2.22044604925031E-16));
#180=DIRECTION('ref_axis',(1.,0.,0.));
#181=DIRECTION('',(0.,-1.,2.22044604925031E-16));
#182=CARTESIAN_POINT('',(0.,0.,0.));
#183=CARTESIAN_POINT('Origin',(0.,0.3101,-6.88560319872522E-17));
#184=CARTESIAN_POINT('',(0.02675,0.3121,-6.60241910093831E-17));
#185=CARTESIAN_POINT('Origin',(0.,0.3121,-6.93001211971022E-17));
#186=CARTESIAN_POINT('',(0.03075,0.3081,-7.21777316847802E-17));
#187=CARTESIAN_POINT('',(0.02875,0.3101,-7.23768915348008E-17));
#188=CARTESIAN_POINT('',(-0.03075,0.3081,-6.4646153870024E-17));
#189=CARTESIAN_POINT('Origin',(0.,0.3081,-6.84119427774021E-17));
#190=CARTESIAN_POINT('Origin',(0.,0.3081,-6.84119427774021E-17));
#191=CARTESIAN_POINT('Origin',(0.,0.15605,-3.46500605985511E-17));
#192=CARTESIAN_POINT('',(-0.03075,0.252,-5.21894515337298E-17));
#193=CARTESIAN_POINT('',(-0.03075,0.15605,-3.0884271691173E-17));
#194=CARTESIAN_POINT('Origin',(0.,0.252,-5.59552404411079E-17));
#195=CARTESIAN_POINT('Origin',(0.,0.3121,-6.93001211971022E-17));
#196=CARTESIAN_POINT('Origin',(0.,0.2445,-1.7501310986611E-18));
#197=CARTESIAN_POINT('',(-0.02575,0.247,-4.90359660646553E-18));
#198=CARTESIAN_POINT('Origin',(0.,0.247,-1.7501310986611E-18));
#199=CARTESIAN_POINT('',(-0.03075,0.242,-5.51592000603921E-18));
#200=CARTESIAN_POINT('',(-0.02825,0.2445,-5.20975830625237E-18));
#201=CARTESIAN_POINT('Origin',(0.,0.242,-5.37347943918575E-17));
#202=CARTESIAN_POINT('Origin',(0.,0.2495,-1.7501310986611E-18));
#203=CARTESIAN_POINT('',(-0.02825,0.2495,-5.20975830625237E-18));
#204=CARTESIAN_POINT('Origin',(0.,0.03075,-6.82787160144471E-18));
#205=CARTESIAN_POINT('',(-0.03075,0.03075,-1.05936605088228E-17));
#206=CARTESIAN_POINT('',(3.76578890737811E-18,0.03075,0.03075));
#207=CARTESIAN_POINT('Origin',(0.,0.03075,-6.82787160144471E-18));
#208=CARTESIAN_POINT('',(2.30588066584261E-34,-5.46369598732853E-18,-4.94497714775565E-18));
#209=CARTESIAN_POINT('Origin',(0.,0.03075,-6.82787160144471E-18));
#210=CARTESIAN_POINT('Origin',(0.,0.03075,-6.82787160144471E-18));
#211=CARTESIAN_POINT('Origin',(0.,0.15605,-3.46500605985511E-17));
#212=CARTESIAN_POINT('',(-0.03075,0.15605,-3.0884271691173E-17));
#213=UNCERTAINTY_MEASURE_WITH_UNIT(LENGTH_MEASURE(0.000393700787401575),
#218,'DISTANCE_ACCURACY_VALUE',
'Maximum model space distance between geometric entities at asserted c
onnectivities');
#214=UNCERTAINTY_MEASURE_WITH_UNIT(LENGTH_MEASURE(0.000393700787401575),
#218,'DISTANCE_ACCURACY_VALUE',
'Maximum model space distance between geometric entities at asserted c
onnectivities');
#215=(
GEOMETRIC_REPRESENTATION_CONTEXT(3)
GLOBAL_UNCERTAINTY_ASSIGNED_CONTEXT((#213))
GLOBAL_UNIT_ASSIGNED_CONTEXT((#218,#222,#223))
REPRESENTATION_CONTEXT('','3D')
);
#216=(
GEOMETRIC_REPRESENTATION_CONTEXT(3)
GLOBAL_UNCERTAINTY_ASSIGNED_CONTEXT((#214))
GLOBAL_UNIT_ASSIGNED_CONTEXT((#218,#222,#223))
REPRESENTATION_CONTEXT('','3D')
);
#217=DIMENSIONAL_EXPONENTS(1.,0.,0.,0.,0.,0.,0.);
#218=(
CONVERSION_BASED_UNIT('inch',#221)
LENGTH_UNIT()
NAMED_UNIT(#217)
);
#219=(
LENGTH_UNIT()
NAMED_UNIT(*)
SI_UNIT(.MILLI.,.METRE.)
);
#220=(
LENGTH_UNIT()
NAMED_UNIT(*)
SI_UNIT($,.METRE.)
);
#221=LENGTH_MEASURE_WITH_UNIT(LENGTH_MEASURE(25.4),#219);
#222=(
NAMED_UNIT(*)
PLANE_ANGLE_UNIT()
SI_UNIT($,.RADIAN.)
);
#223=(
NAMED_UNIT(*)
SI_UNIT($,.STERADIAN.)
SOLID_ANGLE_UNIT()
);
#224=SHAPE_DEFINITION_REPRESENTATION(#225,#226);
#225=PRODUCT_DEFINITION_SHAPE('',$,#228);
#226=SHAPE_REPRESENTATION('',(#126),#215);
#227=PRODUCT_DEFINITION_CONTEXT('part definition',#232,'design');
#228=PRODUCT_DEFINITION('.0615 DIA PIN','.0615 DIA PIN v4',#229,#227);
#229=PRODUCT_DEFINITION_FORMATION('',$,#234);
#230=PRODUCT_RELATED_PRODUCT_CATEGORY('.0615 DIA PIN v4',
'.0615 DIA PIN v4',(#234));
#231=APPLICATION_PROTOCOL_DEFINITION('international standard',
'automotive_design',2009,#232);
#232=APPLICATION_CONTEXT(
'Core Data for Automotive Mechanical Design Process');
#233=PRODUCT_CONTEXT('part definition',#232,'mechanical');
#234=PRODUCT('.0615 DIA PIN','.0615 DIA PIN v4',$,(#233));
#235=PRESENTATION_STYLE_ASSIGNMENT((#236));
#236=SURFACE_STYLE_USAGE(.BOTH.,#237);
#237=SURFACE_SIDE_STYLE('',(#238));
#238=SURFACE_STYLE_FILL_AREA(#239);
#239=FILL_AREA_STYLE('Steel - Satin',(#240));
#240=FILL_AREA_STYLE_COLOUR('Steel - Satin',#241);
#241=COLOUR_RGB('Steel - Satin',0.627450980392157,0.627450980392157,0.627450980392157);
ENDSEC;
END-ISO-10303-21;
